ISO-10303-21;
HEADER;
FILE_DESCRIPTION (( 'STEP AP214' ),
    '1' );
FILE_NAME ('450090_NPP-AYK_Beige.STP',
    '2013-11-15T08:00:14',
    ( 'arge' ),
    ( 'Microsoft' ),
    'SwSTEP 2.0',
    'SolidWorks 2013',
    '' );
FILE_SCHEMA (( 'AUTOMOTIVE_DESIGN' ));
ENDSEC;

DATA;
#1 = VERTEX_POINT ( 'NONE', #170 ) ;
#2 = SURFACE_STYLE_FILL_AREA ( #359 ) ;
#3 = FILL_AREA_STYLE ('',( #5 ) ) ;
#4 = STYLED_ITEM ( 'NONE', ( #71 ), #327 ) ;
#5 = FILL_AREA_STYLE_COLOUR ( '', #279 ) ;
#6 = FILL_AREA_STYLE_COLOUR ( '', #376 ) ;
#7 = CARTESIAN_POINT ( 'NONE',  ( 65.50000000000000000, 48.81787663116310200, 1.500000000000000000 ) ) ;
#8 =( LENGTH_UNIT ( ) NAMED_UNIT ( * ) SI_UNIT ( .MILLI., .METRE. ) );
#9 = MECHANICAL_DESIGN_GEOMETRIC_PRESENTATION_REPRESENTATION (  '', ( #35 ), #245 ) ;
#10 = SURFACE_STYLE_USAGE ( .BOTH. , #259 ) ;
#11 = STYLED_ITEM ( 'NONE', ( #231 ), #317 ) ;
#12 = CARTESIAN_POINT ( 'NONE',  ( 5.982123368837855000, 54.80000000000062200, 1.500000000000000000 ) ) ;
#13 = FILL_AREA_STYLE ('',( #6 ) ) ;
#14 = CARTESIAN_POINT ( 'NONE',  ( 65.50000000000000000, 48.81787663116310200, 0.0000000000000000000 ) ) ;
#15 = DIRECTION ( 'NONE',  ( 0.0000000000000000000, -0.0000000000000000000, 1.000000000000000000 ) ) ;
#16 = DIRECTION ( 'NONE',  ( 0.0000000000000000000, 1.000000000000000000, 0.0000000000000000000 ) ) ;
#17 = AXIS2_PLACEMENT_3D ( 'NONE', #320, #319, #316 ) ;
#18 = CARTESIAN_POINT ( 'NONE',  ( 0.0000000000000000000, 0.0000000000000000000, 1.500000000000000000 ) ) ;
#19 = STYLED_ITEM ( 'NONE', ( #175 ), #195 ) ;
#20 = PRESENTATION_LAYER_ASSIGNMENT (  '', '', ( #35 ) ) ;
#21 = FILL_AREA_STYLE_COLOUR ( '', #188 ) ;
#22 = PRESENTATION_STYLE_ASSIGNMENT (( #192 ) ) ;
#23 = ORIENTED_EDGE ( 'NONE', *, *, #128, .F. ) ;
#24 =( NAMED_UNIT ( * ) SI_UNIT ( $, .STERADIAN. ) SOLID_ANGLE_UNIT ( ) );
#25 =( NAMED_UNIT ( * ) PLANE_ANGLE_UNIT ( ) SI_UNIT ( $, .RADIAN. ) );
#26 = ADVANCED_FACE ( 'NONE', ( #198 ), #183, .F. ) ;
#27 = VERTEX_POINT ( 'NONE', #168 ) ;
#28 = PRESENTATION_LAYER_ASSIGNMENT (  '', '', ( #4 ) ) ;
#29 = AXIS2_PLACEMENT_3D ( 'NONE', #151, #149, #145 ) ;
#30 =( GEOMETRIC_REPRESENTATION_CONTEXT ( 3 ) GLOBAL_UNCERTAINTY_ASSIGNED_CONTEXT ( ( #173 ) ) GLOBAL_UNIT_ASSIGNED_CONTEXT ( ( #280, #277, #276 ) ) REPRESENTATION_CONTEXT ( 'NONE', 'WORKASPACE' ) );
#31 = UNCERTAINTY_MEASURE_WITH_UNIT (LENGTH_MEASURE( 1.000000000000000100E-005 ), #154, 'distance_accuracy_value', 'NONE');
#32 = PLANE ( 'NONE',  #182 ) ;
#33 = PRESENTATION_STYLE_ASSIGNMENT (( #356 ) ) ;
#34 = STYLED_ITEM ( 'NONE', ( #179 ), #341 ) ;
#35 = STYLED_ITEM ( 'NONE', ( #346 ), #95 ) ;
#36 = VECTOR ( 'NONE', #197, 1000.000000000000000 ) ;
#37 = FILL_AREA_STYLE ('',( #42 ) ) ;
#38 = DIRECTION ( 'NONE',  ( 0.0000000000000000000, 1.000000000000000000, 0.0000000000000000000 ) ) ;
#39 = ORIENTED_EDGE ( 'NONE', *, *, #140, .T. ) ;
#40 = VECTOR ( 'NONE', #94, 1000.000000000000000 ) ;
#41 = LINE ( 'NONE', #93, #86 ) ;
#42 = FILL_AREA_STYLE_COLOUR ( '', #134 ) ;
#43 = AXIS2_PLACEMENT_3D ( 'NONE', #348, #347, #342 ) ;
#44 = CARTESIAN_POINT ( 'NONE',  ( -8.673617379884035500E-016, 48.81787663116315900, 1.500000000000000000 ) ) ;
#45 = CARTESIAN_POINT ( 'NONE',  ( 65.50000000000000000, 48.81787663116310200, 1.500000000000000000 ) ) ;
#46 = LINE ( 'NONE', #61, #254 ) ;
#47 = LINE ( 'NONE', #44, #109 ) ;
#48 = PLANE ( 'NONE',  #239 ) ;
#49 = VECTOR ( 'NONE', #65, 1000.000000000000000 ) ;
#50 = UNCERTAINTY_MEASURE_WITH_UNIT (LENGTH_MEASURE( 1.000000000000000100E-005 ), #380, 'distance_accuracy_value', 'NONE');
#51 =( GEOMETRIC_REPRESENTATION_CONTEXT ( 3 ) GLOBAL_UNCERTAINTY_ASSIGNED_CONTEXT ( ( #89 ) ) GLOBAL_UNIT_ASSIGNED_CONTEXT ( ( #166, #164, #160 ) ) REPRESENTATION_CONTEXT ( 'NONE', 'WORKASPACE' ) );
#52 = DIRECTION ( 'NONE',  ( 0.0000000000000000000, 0.0000000000000000000, -1.000000000000000000 ) ) ;
#53 = SURFACE_STYLE_FILL_AREA ( #3 ) ;
#54 = DIRECTION ( 'NONE',  ( 0.7071067811865673300, -0.7071067811865278100, 0.0000000000000000000 ) ) ;
#55 = COLOUR_RGB ( '',0.8431372549019607900, 0.8156862745098039100, 0.7529411764705882200 ) ;
#56 = MECHANICAL_DESIGN_GEOMETRIC_PRESENTATION_REPRESENTATION (  '', ( #67 ), #51 ) ;
#57 = ORIENTED_EDGE ( 'NONE', *, *, #201, .F. ) ;
#58 = CARTESIAN_POINT ( 'NONE',  ( 0.0000000000000000000, 0.0000000000000000000, 1.500000000000000000 ) ) ;
#59 = VECTOR ( 'NONE', #136, 1000.000000000000000 ) ;
#60 = DIRECTION ( 'NONE',  ( -1.000000000000000000, 0.0000000000000000000, -0.0000000000000000000 ) ) ;
#61 = CARTESIAN_POINT ( 'NONE',  ( 0.0000000000000000000, 0.0000000000000000000, 1.500000000000000000 ) ) ;
#62 = PRESENTATION_LAYER_ASSIGNMENT (  '', '', ( #67 ) ) ;
#63 = DIRECTION ( 'NONE',  ( -0.0000000000000000000, -0.0000000000000000000, -1.000000000000000000 ) ) ;
#64 = CARTESIAN_POINT ( 'NONE',  ( 0.0000000000000000000, 0.0000000000000000000, 0.0000000000000000000 ) ) ;
#65 = DIRECTION ( 'NONE',  ( -0.0000000000000000000, 0.0000000000000000000, -1.000000000000000000 ) ) ;
#66 = DIRECTION ( 'NONE',  ( -0.0000000000000000000, -1.000000000000000000, -0.0000000000000000000 ) ) ;
#67 = STYLED_ITEM ( 'NONE', ( #22 ), #26 ) ;
#68 = CARTESIAN_POINT ( 'NONE',  ( 65.50000000000000000, 0.0000000000000000000, 1.500000000000000000 ) ) ;
#69 = ORIENTED_EDGE ( 'NONE', *, *, #193, .F. ) ;
#70 = CARTESIAN_POINT ( 'NONE',  ( 0.0000000000000000000, 0.0000000000000000000, 1.500000000000000000 ) ) ;
#71 = PRESENTATION_STYLE_ASSIGNMENT (( #383 ) ) ;
#72 = CARTESIAN_POINT ( 'NONE',  ( 65.50000000000000000, 0.0000000000000000000, 1.500000000000000000 ) ) ;
#73 = COLOUR_RGB ( '',0.8431372549019607900, 0.8156862745098039100, 0.7529411764705882200 ) ;
#74 = EDGE_CURVE ( 'NONE', #325, #263, #126, .T. ) ;
#75 = ORIENTED_EDGE ( 'NONE', *, *, #105, .F. ) ;
#76 = SURFACE_STYLE_FILL_AREA ( #338 ) ;
#77 = PRESENTATION_STYLE_ASSIGNMENT (( #161 ) ) ;
#78 = VERTEX_POINT ( 'NONE', #130 ) ;
#79 = DIRECTION ( 'NONE',  ( 0.0000000000000000000, 0.0000000000000000000, 1.000000000000000000 ) ) ;
#80 = EDGE_CURVE ( 'NONE', #370, #325, #174, .T. ) ;
#81 = VECTOR ( 'NONE', #91, 1000.000000000000000 ) ;
#82 =( LENGTH_UNIT ( ) NAMED_UNIT ( * ) SI_UNIT ( .MILLI., .METRE. ) );
#83 = ORIENTED_EDGE ( 'NONE', *, *, #113, .T. ) ;
#84 =( NAMED_UNIT ( * ) SI_UNIT ( $, .STERADIAN. ) SOLID_ANGLE_UNIT ( ) );
#85 = SURFACE_STYLE_USAGE ( .BOTH. , #224 ) ;
#86 = VECTOR ( 'NONE', #63, 1000.000000000000000 ) ;
#87 = EDGE_CURVE ( 'NONE', #142, #370, #250, .T. ) ;
#88 = CARTESIAN_POINT ( 'NONE',  ( 59.51787663116214600, 54.80000000000062200, 1.500000000000000000 ) ) ;
#89 = UNCERTAINTY_MEASURE_WITH_UNIT (LENGTH_MEASURE( 1.000000000000000100E-005 ), #166, 'distance_accuracy_value', 'NONE');
#90 = EDGE_CURVE ( 'NONE', #385, #78, #363, .T. ) ;
#91 = DIRECTION ( 'NONE',  ( -0.0000000000000000000, -1.000000000000000000, 0.0000000000000000000 ) ) ;
#92 = CARTESIAN_POINT ( 'NONE',  ( 0.0000000000000000000, 0.0000000000000000000, 1.500000000000000000 ) ) ;
#93 = CARTESIAN_POINT ( 'NONE',  ( 59.51787663116214600, 54.80000000000062200, 1.500000000000000000 ) ) ;
#94 = DIRECTION ( 'NONE',  ( 0.0000000000000000000, 0.0000000000000000000, 1.000000000000000000 ) ) ;
#95 = MANIFOLD_SOLID_BREP ( 'Boss-Extrude3', #248 ) ;
#96 = DIRECTION ( 'NONE',  ( 0.0000000000000000000, 1.000000000000000000, 0.0000000000000000000 ) ) ;
#97 = CARTESIAN_POINT ( 'NONE',  ( 65.50000000000000000, 0.0000000000000000000, 1.500000000000000000 ) ) ;
#98 = CARTESIAN_POINT ( 'NONE',  ( 65.50000000000000000, 48.81787663116310200, 1.500000000000000000 ) ) ;
#99 = UNCERTAINTY_MEASURE_WITH_UNIT (LENGTH_MEASURE( 1.000000000000000100E-005 ), #8, 'distance_accuracy_value', 'NONE');
#100 = EDGE_CURVE ( 'NONE', #78, #142, #354, .T. ) ;
#101 =( NAMED_UNIT ( * ) SI_UNIT ( $, .STERADIAN. ) SOLID_ANGLE_UNIT ( ) );
#102 =( NAMED_UNIT ( * ) PLANE_ANGLE_UNIT ( ) SI_UNIT ( $, .RADIAN. ) );
#103 = ORIENTED_EDGE ( 'NONE', *, *, #113, .F. ) ;
#104 =( LENGTH_UNIT ( ) NAMED_UNIT ( * ) SI_UNIT ( .MILLI., .METRE. ) );
#105 = EDGE_CURVE ( 'NONE', #263, #286, #371, .T. ) ;
#106 = VECTOR ( 'NONE', #221, 1000.000000000000100 ) ;
#107 =( GEOMETRIC_REPRESENTATION_CONTEXT ( 3 ) GLOBAL_UNCERTAINTY_ASSIGNED_CONTEXT ( ( #230 ) ) GLOBAL_UNIT_ASSIGNED_CONTEXT ( ( #353, #352, #350 ) ) REPRESENTATION_CONTEXT ( 'NONE', 'WORKASPACE' ) );
#108 = SURFACE_STYLE_USAGE ( .BOTH. , #110 ) ;
#109 = VECTOR ( 'NONE', #204, 1000.000000000000000 ) ;
#110 = SURFACE_SIDE_STYLE ('',( #384 ) ) ;
#111 = EDGE_CURVE ( 'NONE', #263, #385, #283, .T. ) ;
#112 = FILL_AREA_STYLE ('',( #131 ) ) ;
#113 = EDGE_CURVE ( 'NONE', #286, #194, #292, .T. ) ;
#114 = FACE_OUTER_BOUND ( 'NONE', #251, .T. ) ;
#115 = DIRECTION ( 'NONE',  ( -1.000000000000000000, -0.0000000000000000000, 0.0000000000000000000 ) ) ;
#116 = ORIENTED_EDGE ( 'NONE', *, *, #206, .F. ) ;
#117 = FACE_OUTER_BOUND ( 'NONE', #244, .T. ) ;
#118 = CARTESIAN_POINT ( 'NONE',  ( 5.982123368837855000, 54.80000000000062200, 1.500000000000000000 ) ) ;
#119 = CARTESIAN_POINT ( 'NONE',  ( 65.50000000000000000, 48.81787663116310200, 0.0000000000000000000 ) ) ;
#120 = EDGE_CURVE ( 'NONE', #194, #385, #211, .T. ) ;
#121 = ORIENTED_EDGE ( 'NONE', *, *, #206, .T. ) ;
#122 = LINE ( 'NONE', #92, #381 ) ;
#123 = CARTESIAN_POINT ( 'NONE',  ( 0.0000000000000000000, 0.0000000000000000000, 0.0000000000000000000 ) ) ;
#124 = CARTESIAN_POINT ( 'NONE',  ( 5.982123368837855000, 54.80000000000062200, 0.0000000000000000000 ) ) ;
#125 = DIRECTION ( 'NONE',  ( 1.000000000000000000, 0.0000000000000000000, 0.0000000000000000000 ) ) ;
#126 = LINE ( 'NONE', #135, #59 ) ;
#127 = DIRECTION ( 'NONE',  ( -0.7071067811865278100, -0.7071067811865673300, 0.0000000000000000000 ) ) ;
#128 = EDGE_CURVE ( 'NONE', #194, #246, #122, .T. ) ;
#129 = CARTESIAN_POINT ( 'NONE',  ( 0.0000000000000000000, 48.81787663116315900, 0.0000000000000000000 ) ) ;
#130 = CARTESIAN_POINT ( 'NONE',  ( 0.0000000000000000000, 0.0000000000000000000, 0.0000000000000000000 ) ) ;
#131 = FILL_AREA_STYLE_COLOUR ( '', #367 ) ;
#132 = DIRECTION ( 'NONE',  ( 0.7071067811865704400, 0.7071067811865244800, 0.0000000000000000000 ) ) ;
#133 =( GEOMETRIC_REPRESENTATION_CONTEXT ( 3 ) GLOBAL_UNCERTAINTY_ASSIGNED_CONTEXT ( ( #258 ) ) GLOBAL_UNIT_ASSIGNED_CONTEXT ( ( #261, #351, #311 ) ) REPRESENTATION_CONTEXT ( 'NONE', 'WORKASPACE' ) );
#134 = COLOUR_RGB ( '',0.8431372549019607900, 0.8156862745098039100, 0.7529411764705882200 ) ;
#135 = CARTESIAN_POINT ( 'NONE',  ( 59.51787663116214600, 54.80000000000062200, 0.0000000000000000000 ) ) ;
#136 = DIRECTION ( 'NONE',  ( 0.7071067811865673300, -0.7071067811865278100, 0.0000000000000000000 ) ) ;
#137 = EDGE_CURVE ( 'NONE', #246, #78, #264, .T. ) ;
#138 = UNCERTAINTY_MEASURE_WITH_UNIT (LENGTH_MEASURE( 1.000000000000000100E-005 ), #104, 'distance_accuracy_value', 'NONE');
#139 = ORIENTED_EDGE ( 'NONE', *, *, #120, .F. ) ;
#140 = EDGE_CURVE ( 'NONE', #246, #27, #46, .T. ) ;
#141 =( GEOMETRIC_REPRESENTATION_CONTEXT ( 3 ) GLOBAL_UNCERTAINTY_ASSIGNED_CONTEXT ( ( #218 ) ) GLOBAL_UNIT_ASSIGNED_CONTEXT ( ( #329, #328, #321 ) ) REPRESENTATION_CONTEXT ( 'NONE', 'WORKASPACE' ) );
#142 = VERTEX_POINT ( 'NONE', #219 ) ;
#143 =( GEOMETRIC_REPRESENTATION_CONTEXT ( 3 ) GLOBAL_UNCERTAINTY_ASSIGNED_CONTEXT ( ( #199 ) ) GLOBAL_UNIT_ASSIGNED_CONTEXT ( ( #306, #304, #301 ) ) REPRESENTATION_CONTEXT ( 'NONE', 'WORKASPACE' ) );
#144 = ORIENTED_EDGE ( 'NONE', *, *, #193, .T. ) ;
#145 = DIRECTION ( 'NONE',  ( 0.0000000000000000000, 0.0000000000000000000, -1.000000000000000000 ) ) ;
#146 =( NAMED_UNIT ( * ) SI_UNIT ( $, .STERADIAN. ) SOLID_ANGLE_UNIT ( ) );
#147 = MECHANICAL_DESIGN_GEOMETRIC_PRESENTATION_REPRESENTATION (  '', ( #34 ), #141 ) ;
#148 = DIRECTION ( 'NONE',  ( -1.000000000000000000, 0.0000000000000000000, -0.0000000000000000000 ) ) ;
#149 = DIRECTION ( 'NONE',  ( 1.000000000000000000, -0.0000000000000000000, 0.0000000000000000000 ) ) ;
#150 =( GEOMETRIC_REPRESENTATION_CONTEXT ( 3 ) GLOBAL_UNCERTAINTY_ASSIGNED_CONTEXT ( ( #337 ) ) GLOBAL_UNIT_ASSIGNED_CONTEXT ( ( #82, #272, #84 ) ) REPRESENTATION_CONTEXT ( 'NONE', 'WORKASPACE' ) );
#151 = CARTESIAN_POINT ( 'NONE',  ( 0.0000000000000000000, 48.81787663116315900, 1.500000000000000000 ) ) ;
#152 = EDGE_CURVE ( 'NONE', #27, #142, #47, .T. ) ;
#153 = LINE ( 'NONE', #303, #106 ) ;
#154 =( LENGTH_UNIT ( ) NAMED_UNIT ( * ) SI_UNIT ( .MILLI., .METRE. ) );
#155 = COLOUR_RGB ( '',0.8431372549019607900, 0.8156862745098039100, 0.7529411764705882200 ) ;
#156 = PLANE ( 'NONE',  #208 ) ;
#157 = ORIENTED_EDGE ( 'NONE', *, *, #189, .T. ) ;
#158 = PRODUCT_DEFINITION_FORMATION_WITH_SPECIFIED_SOURCE ( 'ANY', '', #315, .NOT_KNOWN. ) ;
#159 = ORIENTED_EDGE ( 'NONE', *, *, #74, .T. ) ;
#160 =( NAMED_UNIT ( * ) SI_UNIT ( $, .STERADIAN. ) SOLID_ANGLE_UNIT ( ) );
#161 = SURFACE_STYLE_USAGE ( .BOTH. , #185 ) ;
#162 = MECHANICAL_DESIGN_GEOMETRIC_PRESENTATION_REPRESENTATION (  '', ( #225 ), #133 ) ;
#163 = PRODUCT_DEFINITION_SHAPE ( 'NONE', 'NONE',  #247 ) ;
#164 =( NAMED_UNIT ( * ) PLANE_ANGLE_UNIT ( ) SI_UNIT ( $, .RADIAN. ) );
#165 = PRODUCT_RELATED_PRODUCT_CATEGORY ( 'part', '', ( #315 ) ) ;
#166 =( LENGTH_UNIT ( ) NAMED_UNIT ( * ) SI_UNIT ( .MILLI., .METRE. ) );
#167 = ORIENTED_EDGE ( 'NONE', *, *, #120, .T. ) ;
#168 = CARTESIAN_POINT ( 'NONE',  ( 6.505213034913024600E-016, 48.81787663116315900, 1.500000000000000000 ) ) ;
#169 = ADVANCED_FACE ( 'NONE', ( #178 ), #235, .F. ) ;
#170 = CARTESIAN_POINT ( 'NONE',  ( 59.51787663116214600, 54.80000000000062200, 1.500000000000000000 ) ) ;
#171 = ORIENTED_EDGE ( 'NONE', *, *, #137, .T. ) ;
#172 = FILL_AREA_STYLE_COLOUR ( '', #253 ) ;
#173 = UNCERTAINTY_MEASURE_WITH_UNIT (LENGTH_MEASURE( 1.000000000000000100E-005 ), #280, 'distance_accuracy_value', 'NONE');
#174 = LINE ( 'NONE', #202, #314 ) ;
#175 = PRESENTATION_STYLE_ASSIGNMENT (( #287 ) ) ;
#176 = PRESENTATION_LAYER_ASSIGNMENT (  '', '', ( #225 ) ) ;
#177 = AXIS2_PLACEMENT_3D ( 'NONE', #18, #16, #15 ) ;
#178 = FACE_OUTER_BOUND ( 'NONE', #288, .T. ) ;
#179 = PRESENTATION_STYLE_ASSIGNMENT (( #331 ) ) ;
#180 = EDGE_CURVE ( 'NONE', #27, #282, #153, .T. ) ;
#181 = ORIENTED_EDGE ( 'NONE', *, *, #140, .F. ) ;
#182 = AXIS2_PLACEMENT_3D ( 'NONE', #372, #369, #366 ) ;
#183 = PLANE ( 'NONE',  #29 ) ;
#184 = FILL_AREA_STYLE ('',( #172 ) ) ;
#185 = SURFACE_SIDE_STYLE ('',( #332 ) ) ;
#186 = ORIENTED_EDGE ( 'NONE', *, *, #74, .F. ) ;
#187 = CARTESIAN_POINT ( 'NONE',  ( 59.51787663116214600, 54.80000000000062200, 1.500000000000000000 ) ) ;
#188 = COLOUR_RGB ( '',0.8431372549019607900, 0.8156862745098039100, 0.7529411764705882200 ) ;
#189 = EDGE_CURVE ( 'NONE', #282, #370, #210, .T. ) ;
#190 = SURFACE_STYLE_FILL_AREA ( #207 ) ;
#191 = CARTESIAN_POINT ( 'NONE',  ( 59.51787663116214600, 54.80000000000062200, 0.0000000000000000000 ) ) ;
#192 = SURFACE_STYLE_USAGE ( .BOTH. , #213 ) ;
#193 = EDGE_CURVE ( 'NONE', #282, #1, #326, .T. ) ;
#194 = VERTEX_POINT ( 'NONE', #68 ) ;
#195 = ADVANCED_BREP_SHAPE_REPRESENTATION ( '450090_NPP-AYK_Beige', ( #95, #324 ), #143 ) ;
#196 = SURFACE_SIDE_STYLE ('',( #349 ) ) ;
#197 = DIRECTION ( 'NONE',  ( 0.0000000000000000000, -0.0000000000000000000, -1.000000000000000000 ) ) ;
#198 = FACE_OUTER_BOUND ( 'NONE', #285, .T. ) ;
#199 = UNCERTAINTY_MEASURE_WITH_UNIT (LENGTH_MEASURE( 1.000000000000000100E-005 ), #306, 'distance_accuracy_value', 'NONE');
#200 = PRESENTATION_LAYER_ASSIGNMENT (  '', '', ( #11 ) ) ;
#201 = EDGE_CURVE ( 'NONE', #1, #325, #41, .T. ) ;
#202 = CARTESIAN_POINT ( 'NONE',  ( 59.51787663116214600, 54.80000000000062200, 0.0000000000000000000 ) ) ;
#203 = FACE_OUTER_BOUND ( 'NONE', #238, .T. ) ;
#204 = DIRECTION ( 'NONE',  ( 0.0000000000000000000, -0.0000000000000000000, -1.000000000000000000 ) ) ;
#205 = COLOUR_RGB ( '',0.4941176470588235500, 0.4941176470588235500, 0.4941176470588235500 ) ;
#206 = EDGE_CURVE ( 'NONE', #1, #286, #252, .T. ) ;
#207 = FILL_AREA_STYLE ('',( #21 ) ) ;
#208 = AXIS2_PLACEMENT_3D ( 'NONE', #64, #274, #148 ) ;
#209 = ORIENTED_EDGE ( 'NONE', *, *, #180, .T. ) ;
#210 = LINE ( 'NONE', #118, #36 ) ;
#211 = LINE ( 'NONE', #97, #49 ) ;
#212 = ORIENTED_EDGE ( 'NONE', *, *, #152, .T. ) ;
#213 = SURFACE_SIDE_STYLE ('',( #358 ) ) ;
#214 =( GEOMETRIC_REPRESENTATION_CONTEXT ( 3 ) GLOBAL_UNCERTAINTY_ASSIGNED_CONTEXT ( ( #50 ) ) GLOBAL_UNIT_ASSIGNED_CONTEXT ( ( #380, #378, #377 ) ) REPRESENTATION_CONTEXT ( 'NONE', 'WORKASPACE' ) );
#215 = VECTOR ( 'NONE', #66, 1000.000000000000000 ) ;
#216 = EDGE_LOOP ( 'NONE', ( #345, #144, #310, #281 ) ) ;
#217 = ORIENTED_EDGE ( 'NONE', *, *, #100, .T. ) ;
#218 = UNCERTAINTY_MEASURE_WITH_UNIT (LENGTH_MEASURE( 1.000000000000000100E-005 ), #329, 'distance_accuracy_value', 'NONE');
#219 = CARTESIAN_POINT ( 'NONE',  ( 6.505213034913024600E-016, 48.81787663116315900, 0.0000000000000000000 ) ) ;
#220 = MECHANICAL_DESIGN_GEOMETRIC_PRESENTATION_REPRESENTATION (  '', ( #375 ), #107 ) ;
#221 = DIRECTION ( 'NONE',  ( 0.7071067811865704400, 0.7071067811865244800, 0.0000000000000000000 ) ) ;
#222 = PRESENTATION_STYLE_ASSIGNMENT (( #10 ) ) ;
#223 = ADVANCED_FACE ( 'NONE', ( #203 ), #355, .F. ) ;
#224 = SURFACE_SIDE_STYLE ('',( #53 ) ) ;
#225 = STYLED_ITEM ( 'NONE', ( #340 ), #302 ) ;
#226 = SHAPE_DEFINITION_REPRESENTATION ( #163, #195 ) ;
#227 = VECTOR ( 'NONE', #54, 999.9999999999998900 ) ;
#228 = ORIENTED_EDGE ( 'NONE', *, *, #90, .F. ) ;
#229 =( GEOMETRIC_REPRESENTATION_CONTEXT ( 3 ) GLOBAL_UNCERTAINTY_ASSIGNED_CONTEXT ( ( #99 ) ) GLOBAL_UNIT_ASSIGNED_CONTEXT ( ( #8, #25, #24 ) ) REPRESENTATION_CONTEXT ( 'NONE', 'WORKASPACE' ) );
#230 = UNCERTAINTY_MEASURE_WITH_UNIT (LENGTH_MEASURE( 1.000000000000000100E-005 ), #353, 'distance_accuracy_value', 'NONE');
#231 = PRESENTATION_STYLE_ASSIGNMENT (( #265 ) ) ;
#232 = MECHANICAL_DESIGN_GEOMETRIC_PRESENTATION_REPRESENTATION (  '', ( #373 ), #229 ) ;
#233 = PRESENTATION_LAYER_ASSIGNMENT (  '', '', ( #373 ) ) ;
#234 = ORIENTED_EDGE ( 'NONE', *, *, #111, .F. ) ;
#235 = PLANE ( 'NONE',  #237 ) ;
#236 = FILL_AREA_STYLE_COLOUR ( '', #55 ) ;
#237 = AXIS2_PLACEMENT_3D ( 'NONE', #88, #127, #305 ) ;
#238 = EDGE_LOOP ( 'NONE', ( #139, #386, #171, #228 ) ) ;
#239 = AXIS2_PLACEMENT_3D ( 'NONE', #45, #243, #79 ) ;
#240 = VECTOR ( 'NONE', #115, 1000.000000000000000 ) ;
#241 = MECHANICAL_DESIGN_GEOMETRIC_PRESENTATION_REPRESENTATION (  '', ( #4 ), #214 ) ;
#242 = ORIENTED_EDGE ( 'NONE', *, *, #90, .T. ) ;
#243 = DIRECTION ( 'NONE',  ( -1.000000000000000000, 0.0000000000000000000, 0.0000000000000000000 ) ) ;
#244 = EDGE_LOOP ( 'NONE', ( #297, #209, #157, #309 ) ) ;
#245 =( GEOMETRIC_REPRESENTATION_CONTEXT ( 3 ) GLOBAL_UNCERTAINTY_ASSIGNED_CONTEXT ( ( #138 ) ) GLOBAL_UNIT_ASSIGNED_CONTEXT ( ( #104, #102, #101 ) ) REPRESENTATION_CONTEXT ( 'NONE', 'WORKASPACE' ) );
#246 = VERTEX_POINT ( 'NONE', #58 ) ;
#247 = PRODUCT_DEFINITION ( 'UNKNOWN', '', #158, #388 ) ;
#248 = CLOSED_SHELL ( 'NONE', ( #339, #169, #341, #327, #26, #223, #302, #317 ) ) ;
#249 = STYLED_ITEM ( 'NONE', ( #77 ), #169 ) ;
#250 = LINE ( 'NONE', #124, #295 ) ;
#251 = EDGE_LOOP ( 'NONE', ( #312, #83, #167, #234 ) ) ;
#252 = LINE ( 'NONE', #187, #227 ) ;
#253 = COLOUR_RGB ( '',0.8431372549019607900, 0.8156862745098039100, 0.7529411764705882200 ) ;
#254 = VECTOR ( 'NONE', #38, 1000.000000000000000 ) ;
#255 = MECHANICAL_DESIGN_GEOMETRIC_PRESENTATION_REPRESENTATION (  '', ( #11 ), #150 ) ;
#256 = FACE_OUTER_BOUND ( 'NONE', #216, .T. ) ;
#257 = ORIENTED_EDGE ( 'NONE', *, *, #100, .F. ) ;
#258 = UNCERTAINTY_MEASURE_WITH_UNIT (LENGTH_MEASURE( 1.000000000000000100E-005 ), #261, 'distance_accuracy_value', 'NONE');
#259 = SURFACE_SIDE_STYLE ('',( #300 ) ) ;
#260 = PRESENTATION_LAYER_ASSIGNMENT (  '', '', ( #249 ) ) ;
#261 =( LENGTH_UNIT ( ) NAMED_UNIT ( * ) SI_UNIT ( .MILLI., .METRE. ) );
#262 = VECTOR ( 'NONE', #52, 1000.000000000000000 ) ;
#263 = VERTEX_POINT ( 'NONE', #14 ) ;
#264 = LINE ( 'NONE', #70, #262 ) ;
#265 = SURFACE_STYLE_USAGE ( .BOTH. , #196 ) ;
#266 = APPLICATION_PROTOCOL_DEFINITION ( 'draft international standard', 'automotive_design', 1998, #267 ) ;
#267 = APPLICATION_CONTEXT ( 'automotive_design' ) ;
#268 = PRODUCT_CONTEXT ( 'NONE', #293, 'mechanical' ) ;
#269 = DIRECTION ( 'NONE',  ( 1.000000000000000000, 0.0000000000000000000, 0.0000000000000000000 ) ) ;
#270 = DIRECTION ( 'NONE',  ( 0.0000000000000000000, 0.0000000000000000000, 1.000000000000000000 ) ) ;
#271 = CARTESIAN_POINT ( 'NONE',  ( 0.0000000000000000000, 54.80000000000062200, 1.500000000000000000 ) ) ;
#272 =( NAMED_UNIT ( * ) PLANE_ANGLE_UNIT ( ) SI_UNIT ( $, .RADIAN. ) );
#273 = CARTESIAN_POINT ( 'NONE',  ( 0.0000000000000000000, 0.0000000000000000000, 0.0000000000000000000 ) ) ;
#274 = DIRECTION ( 'NONE',  ( 0.0000000000000000000, 0.0000000000000000000, -1.000000000000000000 ) ) ;
#275 = ORIENTED_EDGE ( 'NONE', *, *, #137, .F. ) ;
#276 =( NAMED_UNIT ( * ) SI_UNIT ( $, .STERADIAN. ) SOLID_ANGLE_UNIT ( ) );
#277 =( NAMED_UNIT ( * ) PLANE_ANGLE_UNIT ( ) SI_UNIT ( $, .RADIAN. ) );
#278 = ORIENTED_EDGE ( 'NONE', *, *, #80, .T. ) ;
#279 = COLOUR_RGB ( '',0.8431372549019607900, 0.8156862745098039100, 0.7529411764705882200 ) ;
#280 =( LENGTH_UNIT ( ) NAMED_UNIT ( * ) SI_UNIT ( .MILLI., .METRE. ) );
#281 = ORIENTED_EDGE ( 'NONE', *, *, #80, .F. ) ;
#282 = VERTEX_POINT ( 'NONE', #12 ) ;
#283 = LINE ( 'NONE', #119, #81 ) ;
#284 = FILL_AREA_STYLE ('',( #236 ) ) ;
#285 = EDGE_LOOP ( 'NONE', ( #275, #39, #212, #257 ) ) ;
#286 = VERTEX_POINT ( 'NONE', #7 ) ;
#287 = SURFACE_STYLE_USAGE ( .BOTH. , #289 ) ;
#288 = EDGE_LOOP ( 'NONE', ( #57, #121, #75, #186 ) ) ;
#289 = SURFACE_SIDE_STYLE ('',( #296 ) ) ;
#290 = VECTOR ( 'NONE', #96, 1000.000000000000000 ) ;
#291 = FILL_AREA_STYLE ('',( #307 ) ) ;
#292 = LINE ( 'NONE', #72, #215 ) ;
#293 = APPLICATION_CONTEXT ( 'automotive_design' ) ;
#294 = EDGE_LOOP ( 'NONE', ( #69, #360, #181, #23, #103, #116 ) ) ;
#295 = VECTOR ( 'NONE', #132, 1000.000000000000100 ) ;
#296 = SURFACE_STYLE_FILL_AREA ( #291 ) ;
#297 = ORIENTED_EDGE ( 'NONE', *, *, #152, .F. ) ;
#298 = APPLICATION_PROTOCOL_DEFINITION ( 'draft international standard', 'automotive_design', 1998, #293 ) ;
#299 = DIRECTION ( 'NONE',  ( 1.000000000000000000, -0.0000000000000000000, 0.0000000000000000000 ) ) ;
#300 = SURFACE_STYLE_FILL_AREA ( #37 ) ;
#301 =( NAMED_UNIT ( * ) SI_UNIT ( $, .STERADIAN. ) SOLID_ANGLE_UNIT ( ) );
#302 = ADVANCED_FACE ( 'NONE', ( #114 ), #48, .F. ) ;
#303 = CARTESIAN_POINT ( 'NONE',  ( 0.0000000000000000000, 48.81787663116315900, 1.500000000000000000 ) ) ;
#304 =( NAMED_UNIT ( * ) PLANE_ANGLE_UNIT ( ) SI_UNIT ( $, .RADIAN. ) );
#305 = DIRECTION ( 'NONE',  ( 0.7071067811865673300, -0.7071067811865278100, 0.0000000000000000000 ) ) ;
#306 =( LENGTH_UNIT ( ) NAMED_UNIT ( * ) SI_UNIT ( .MILLI., .METRE. ) );
#307 = FILL_AREA_STYLE_COLOUR ( '', #205 ) ;
#308 = CARTESIAN_POINT ( 'NONE',  ( 5.982123368837855000, 54.80000000000062200, 0.0000000000000000000 ) ) ;
#309 = ORIENTED_EDGE ( 'NONE', *, *, #87, .F. ) ;
#310 = ORIENTED_EDGE ( 'NONE', *, *, #201, .T. ) ;
#311 =( NAMED_UNIT ( * ) SI_UNIT ( $, .STERADIAN. ) SOLID_ANGLE_UNIT ( ) );
#312 = ORIENTED_EDGE ( 'NONE', *, *, #105, .T. ) ;
#313 = CARTESIAN_POINT ( 'NONE',  ( 65.50000000000000000, 0.0000000000000000000, 0.0000000000000000000 ) ) ;
#314 = VECTOR ( 'NONE', #125, 1000.000000000000000 ) ;
#315 = PRODUCT ( '450090_NPP-AYK_Beige', '450090_NPP-AYK_Beige', '', ( #268 ) ) ;
#316 = DIRECTION ( 'NONE',  ( 0.0000000000000000000, -0.0000000000000000000, -1.000000000000000000 ) ) ;
#317 = ADVANCED_FACE ( 'NONE', ( #336 ), #156, .T. ) ;
#318 = EDGE_LOOP ( 'NONE', ( #323, #278, #159, #382, #242, #217 ) ) ;
#319 = DIRECTION ( 'NONE',  ( 0.0000000000000000000, -1.000000000000000000, 0.0000000000000000000 ) ) ;
#320 = CARTESIAN_POINT ( 'NONE',  ( 59.51787663116214600, 54.80000000000062200, 1.500000000000000000 ) ) ;
#321 =( NAMED_UNIT ( * ) SI_UNIT ( $, .STERADIAN. ) SOLID_ANGLE_UNIT ( ) );
#322 = PRESENTATION_LAYER_ASSIGNMENT (  '', '', ( #19 ) ) ;
#323 = ORIENTED_EDGE ( 'NONE', *, *, #87, .T. ) ;
#324 = AXIS2_PLACEMENT_3D ( 'NONE', #273, #270, #269 ) ;
#325 = VERTEX_POINT ( 'NONE', #191 ) ;
#326 = LINE ( 'NONE', #271, #368 ) ;
#327 = ADVANCED_FACE ( 'NONE', ( #117 ), #32, .F. ) ;
#328 =( NAMED_UNIT ( * ) PLANE_ANGLE_UNIT ( ) SI_UNIT ( $, .RADIAN. ) );
#329 =( LENGTH_UNIT ( ) NAMED_UNIT ( * ) SI_UNIT ( .MILLI., .METRE. ) );
#330 = MECHANICAL_DESIGN_GEOMETRIC_PRESENTATION_REPRESENTATION (  '', ( #19 ), #30 ) ;
#331 = SURFACE_STYLE_USAGE ( .BOTH. , #333 ) ;
#332 = SURFACE_STYLE_FILL_AREA ( #284 ) ;
#333 = SURFACE_SIDE_STYLE ('',( #76 ) ) ;
#334 = PRESENTATION_LAYER_ASSIGNMENT (  '', '', ( #34 ) ) ;
#335 = PRESENTATION_LAYER_ASSIGNMENT (  '', '', ( #375 ) ) ;
#336 = FACE_OUTER_BOUND ( 'NONE', #318, .T. ) ;
#337 = UNCERTAINTY_MEASURE_WITH_UNIT (LENGTH_MEASURE( 1.000000000000000100E-005 ), #82, 'distance_accuracy_value', 'NONE');
#338 = FILL_AREA_STYLE ('',( #361 ) ) ;
#339 = ADVANCED_FACE ( 'NONE', ( #344 ), #374, .F. ) ;
#340 = PRESENTATION_STYLE_ASSIGNMENT (( #85 ) ) ;
#341 = ADVANCED_FACE ( 'NONE', ( #256 ), #365, .F. ) ;
#342 = DIRECTION ( 'NONE',  ( -1.000000000000000000, 0.0000000000000000000, -0.0000000000000000000 ) ) ;
#343 =( NAMED_UNIT ( * ) PLANE_ANGLE_UNIT ( ) SI_UNIT ( $, .RADIAN. ) );
#344 = FACE_OUTER_BOUND ( 'NONE', #294, .T. ) ;
#345 = ORIENTED_EDGE ( 'NONE', *, *, #189, .F. ) ;
#346 = PRESENTATION_STYLE_ASSIGNMENT (( #108 ) ) ;
#347 = DIRECTION ( 'NONE',  ( 0.0000000000000000000, 0.0000000000000000000, -1.000000000000000000 ) ) ;
#348 = CARTESIAN_POINT ( 'NONE',  ( 0.0000000000000000000, 0.0000000000000000000, 1.500000000000000000 ) ) ;
#349 = SURFACE_STYLE_FILL_AREA ( #13 ) ;
#350 =( NAMED_UNIT ( * ) SI_UNIT ( $, .STERADIAN. ) SOLID_ANGLE_UNIT ( ) );
#351 =( NAMED_UNIT ( * ) PLANE_ANGLE_UNIT ( ) SI_UNIT ( $, .RADIAN. ) );
#352 =( NAMED_UNIT ( * ) PLANE_ANGLE_UNIT ( ) SI_UNIT ( $, .RADIAN. ) );
#353 =( LENGTH_UNIT ( ) NAMED_UNIT ( * ) SI_UNIT ( .MILLI., .METRE. ) );
#354 = LINE ( 'NONE', #129, #290 ) ;
#355 = PLANE ( 'NONE',  #177 ) ;
#356 = SURFACE_STYLE_USAGE ( .BOTH. , #357 ) ;
#357 = SURFACE_SIDE_STYLE ('',( #2 ) ) ;
#358 = SURFACE_STYLE_FILL_AREA ( #184 ) ;
#359 = FILL_AREA_STYLE ('',( #362 ) ) ;
#360 = ORIENTED_EDGE ( 'NONE', *, *, #180, .F. ) ;
#361 = FILL_AREA_STYLE_COLOUR ( '', #73 ) ;
#362 = FILL_AREA_STYLE_COLOUR ( '', #155 ) ;
#363 = LINE ( 'NONE', #123, #240 ) ;
#364 =( GEOMETRIC_REPRESENTATION_CONTEXT ( 3 ) GLOBAL_UNCERTAINTY_ASSIGNED_CONTEXT ( ( #31 ) ) GLOBAL_UNIT_ASSIGNED_CONTEXT ( ( #154, #343, #146 ) ) REPRESENTATION_CONTEXT ( 'NONE', 'WORKASPACE' ) );
#365 = PLANE ( 'NONE',  #17 ) ;
#366 = DIRECTION ( 'NONE',  ( 0.7071067811865704400, 0.7071067811865244800, 0.0000000000000000000 ) ) ;
#367 = COLOUR_RGB ( '',0.8431372549019607900, 0.8156862745098039100, 0.7529411764705882200 ) ;
#368 = VECTOR ( 'NONE', #299, 1000.000000000000000 ) ;
#369 = DIRECTION ( 'NONE',  ( 0.7071067811865245900, -0.7071067811865705500, 0.0000000000000000000 ) ) ;
#370 = VERTEX_POINT ( 'NONE', #308 ) ;
#371 = LINE ( 'NONE', #98, #40 ) ;
#372 = CARTESIAN_POINT ( 'NONE',  ( 5.982123368837855000, 54.80000000000062200, 1.500000000000000000 ) ) ;
#373 = STYLED_ITEM ( 'NONE', ( #222 ), #223 ) ;
#374 = PLANE ( 'NONE',  #43 ) ;
#375 = STYLED_ITEM ( 'NONE', ( #33 ), #339 ) ;
#376 = COLOUR_RGB ( '',0.8431372549019607900, 0.8156862745098039100, 0.7529411764705882200 ) ;
#377 =( NAMED_UNIT ( * ) SI_UNIT ( $, .STERADIAN. ) SOLID_ANGLE_UNIT ( ) );
#378 =( NAMED_UNIT ( * ) PLANE_ANGLE_UNIT ( ) SI_UNIT ( $, .RADIAN. ) );
#379 = MECHANICAL_DESIGN_GEOMETRIC_PRESENTATION_REPRESENTATION (  '', ( #249 ), #364 ) ;
#380 =( LENGTH_UNIT ( ) NAMED_UNIT ( * ) SI_UNIT ( .MILLI., .METRE. ) );
#381 = VECTOR ( 'NONE', #60, 1000.000000000000000 ) ;
#382 = ORIENTED_EDGE ( 'NONE', *, *, #111, .T. ) ;
#383 = SURFACE_STYLE_USAGE ( .BOTH. , #387 ) ;
#384 = SURFACE_STYLE_FILL_AREA ( #112 ) ;
#385 = VERTEX_POINT ( 'NONE', #313 ) ;
#386 = ORIENTED_EDGE ( 'NONE', *, *, #128, .T. ) ;
#387 = SURFACE_SIDE_STYLE ('',( #190 ) ) ;
#388 = PRODUCT_DEFINITION_CONTEXT ( 'detailed design', #267, 'design' ) ;
ENDSEC;
END-ISO-10303-21;
